ISO-10303-21;
HEADER;
FILE_DESCRIPTION (( 'STEP AP203' ),
    '1' );
FILE_NAME ('BK7-SPDBSP-25.4-805.STEP',
    '2020-12-22T02:22:27',
    ( '' ),
    ( '' ),
    'SwSTEP 2.0',
    'SolidWorks 2020',
    '' );
FILE_SCHEMA (( 'CONFIG_CONTROL_DESIGN' ));
ENDSEC;

DATA;
#1 = DIRECTION ( 'NONE',  ( -1.000000000000000000, -0.000000000000000000, -0.000000000000000000 ) ) ;
#2 = DIRECTION ( 'NONE',  ( 0.000000000000000000, 0.000000000000000000, 1.000000000000000000 ) ) ;
#3 = APPROVAL_PERSON_ORGANIZATION ( #117, #7, #10 ) ;
#4 = CARTESIAN_POINT ( 'NONE',  ( 3.499999999999998224, 1.555301434917138433E-15, -12.69999999999999929 ) ) ;
#5 = DIRECTION ( 'NONE',  ( 0.000000000000000000, 0.000000000000000000, 1.000000000000000000 ) ) ;
#6 = AXIS2_PLACEMENT_3D ( 'NONE', #139, #140, #100 ) ;
#7 = APPROVAL ( #102, 'UNSPECIFIED' ) ;
#8 = DATE_AND_TIME ( #22, #82 ) ;
#9 = COORDINATED_UNIVERSAL_TIME_OFFSET ( 8, 0, .AHEAD. ) ;
#10 = APPROVAL_ROLE ( '' ) ;
#11 = PERSON_AND_ORGANIZATION ( #88, #72 ) ;
#12 = ADVANCED_FACE ( 'NONE', ( #65 ), #174, .F. ) ;
#13 = DATE_AND_TIME ( #134, #97 ) ;
#14 = EDGE_LOOP ( 'NONE', ( #15, #84 ) ) ;
#15 = ORIENTED_EDGE ( 'NONE', *, *, #148, .F. ) ;
#16 = ORIENTED_EDGE ( 'NONE', *, *, #40, .F. ) ;
#17 = CARTESIAN_POINT ( 'NONE',  ( 0.000000000000000000, 1.555301434917138433E-15, -12.69999999999999929 ) ) ;
#18 = CARTESIAN_POINT ( 'NONE',  ( -5.939536975864662969E-16, 12.69999999999999929, 0.000000000000000000 ) ) ;
#19 = LOCAL_TIME ( 10, 22, 27.00000000000000000, #73 ) ;
#20 = FACE_OUTER_BOUND ( 'NONE', #94, .T. ) ;
#21 = EDGE_CURVE ( 'NONE', #149, #109, #143, .T. ) ;
#22 = CALENDAR_DATE ( 2020, 22, 12 ) ;
#23 = LOCAL_TIME ( 10, 22, 27.00000000000000000, #122 ) ;
#24 = APPLICATION_PROTOCOL_DEFINITION ( 'international standard', 'config_control_design', 1994, #153 ) ;
#25 = ORIENTED_EDGE ( 'NONE', *, *, #129, .F. ) ;
#26 = AXIS2_PLACEMENT_3D ( 'NONE', #96, #67, #5 ) ;
#27 = CARTESIAN_POINT ( 'NONE',  ( 3.499999999999998224, 0.000000000000000000, 0.000000000000000000 ) ) ;
#28 = DIRECTION ( 'NONE',  ( 0.000000000000000000, 0.000000000000000000, 1.000000000000000000 ) ) ;
#29 = CC_DESIGN_APPROVAL ( #165, ( #35 ) ) ;
#30 = LINE ( 'NONE', #87, #66 ) ;
#31 =( NAMED_UNIT ( * ) SI_UNIT ( $, .STERADIAN. ) SOLID_ANGLE_UNIT ( ) );
#32 = UNCERTAINTY_MEASURE_WITH_UNIT (LENGTH_MEASURE( 1.000000000000000082E-05 ), #115, 'distance_accuracy_value', 'NONE');
#33 = PERSON_AND_ORGANIZATION ( #88, #72 ) ;
#34 = PERSON_AND_ORGANIZATION_ROLE ( 'design_supplier' ) ;
#35 = PRODUCT_DEFINITION_FORMATION_WITH_SPECIFIED_SOURCE ( 'ANY', '', #62, .NOT_KNOWN. ) ;
#36 = ORIENTED_EDGE ( 'NONE', *, *, #95, .T. ) ;
#37 = ADVANCED_FACE ( 'NONE', ( #68 ), #128, .T. ) ;
#38 = AXIS2_PLACEMENT_3D ( 'NONE', #18, #141, #54 ) ;
#39 = APPLICATION_CONTEXT ( 'configuration controlled 3d designs of mechanical parts and assemblies' ) ;
#40 = EDGE_CURVE ( 'NONE', #149, #147, #130, .T. ) ;
#41 = CARTESIAN_POINT ( 'NONE',  ( 3.499999999999998224, 0.000000000000000000, 12.69999999999999929 ) ) ;
#42 = DATE_AND_TIME ( #168, #19 ) ;
#43 = CC_DESIGN_PERSON_AND_ORGANIZATION_ASSIGNMENT ( #93, #144, ( #47 ) ) ;
#44 = COORDINATED_UNIVERSAL_TIME_OFFSET ( 8, 0, .AHEAD. ) ;
#45 = DATE_AND_TIME ( #121, #23 ) ;
#46 = APPROVAL_ROLE ( '' ) ;
#47 = SECURITY_CLASSIFICATION ( '', '', #105 ) ;
#48 = EDGE_LOOP ( 'NONE', ( #173, #81 ) ) ;
#49 = PRODUCT_DEFINITION ( 'UNKNOWN', '', #35, #146 ) ;
#50 = CARTESIAN_POINT ( 'NONE',  ( 3.499999999999999112, 12.69999999999999929, 0.000000000000000000 ) ) ;
#51 = CLOSED_SHELL ( 'NONE', ( #37, #119, #12, #74 ) ) ;
#52 = DIRECTION ( 'NONE',  ( -1.000000000000000000, -0.000000000000000000, -0.000000000000000000 ) ) ;
#53 =( GEOMETRIC_REPRESENTATION_CONTEXT ( 3 ) GLOBAL_UNCERTAINTY_ASSIGNED_CONTEXT ( ( #32 ) ) GLOBAL_UNIT_ASSIGNED_CONTEXT ( ( #115, #98, #31 ) ) REPRESENTATION_CONTEXT ( 'NONE', 'WORKASPACE' ) );
#54 = DIRECTION ( 'NONE',  ( 0.000000000000000000, 0.000000000000000000, -1.000000000000000000 ) ) ;
#55 = CARTESIAN_POINT ( 'NONE',  ( -1.187907395172932594E-15, 0.000000000000000000, 12.69999999999999929 ) ) ;
#56 = CIRCLE ( 'NONE', #167, 12.69999999999999929 ) ;
#57 = APPLICATION_PROTOCOL_DEFINITION ( 'international standard', 'config_control_design', 1994, #39 ) ;
#58 = PERSON_AND_ORGANIZATION_ROLE ( 'creator' ) ;
#59 = APPROVAL_DATE_TIME ( #13, #85 ) ;
#60 = PERSON_AND_ORGANIZATION ( #88, #72 ) ;
#61 = ORIENTED_EDGE ( 'NONE', *, *, #40, .T. ) ;
#62 = PRODUCT ( 'BK7-SPDBSP-25.4-805', 'BK7-SPDBSP-25.4-805', '', ( #75 ) ) ;
#63 = AXIS2_PLACEMENT_3D ( 'NONE', #131, #69, #28 ) ;
#64 = ORIENTED_EDGE ( 'NONE', *, *, #95, .F. ) ;
#65 = FACE_OUTER_BOUND ( 'NONE', #14, .T. ) ;
#66 = VECTOR ( 'NONE', #99, 1000.000000000000000 ) ;
#67 = DIRECTION ( 'NONE',  ( -1.000000000000000000, -0.000000000000000000, -0.000000000000000000 ) ) ;
#68 = FACE_OUTER_BOUND ( 'NONE', #83, .T. ) ;
#69 = DIRECTION ( 'NONE',  ( -1.000000000000000000, -0.000000000000000000, -0.000000000000000000 ) ) ;
#70 = PRODUCT_RELATED_PRODUCT_CATEGORY ( 'detail', '', ( #62 ) ) ;
#71 = DIRECTION ( 'NONE',  ( 0.000000000000000000, 0.000000000000000000, 1.000000000000000000 ) ) ;
#72 = ORGANIZATION ( 'UNSPECIFIED', 'UNSPECIFIED', '' ) ;
#73 = COORDINATED_UNIVERSAL_TIME_OFFSET ( 8, 0, .AHEAD. ) ;
#74 = ADVANCED_FACE ( 'NONE', ( #112 ), #86, .F. ) ;
#75 = MECHANICAL_CONTEXT ( 'NONE', #153, 'mechanical' ) ;
#76 = MANIFOLD_SOLID_BREP ( 'Ðý×', #51 ) ;
#77 = DATE_TIME_ROLE ( 'classification_date' ) ;
#78 = PERSON_AND_ORGANIZATION_ROLE ( 'design_owner' ) ;
#79 = PERSON_AND_ORGANIZATION ( #88, #72 ) ;
#80 = PRODUCT_DEFINITION_SHAPE ( 'NONE', 'NONE',  #49 ) ;
#81 = ORIENTED_EDGE ( 'NONE', *, *, #129, .T. ) ;
#82 = LOCAL_TIME ( 10, 22, 27.00000000000000000, #44 ) ;
#83 = EDGE_LOOP ( 'NONE', ( #138, #61, #136, #64 ) ) ;
#84 = ORIENTED_EDGE ( 'NONE', *, *, #21, .F. ) ;
#85 = APPROVAL ( #123, 'UNSPECIFIED' ) ;
#86 = PLANE ( 'NONE',  #38 ) ;
#87 = CARTESIAN_POINT ( 'NONE',  ( 0.000000000000000000, 0.000000000000000000, 12.69999999999999929 ) ) ;
#88 = PERSON ( 'UNSPECIFIED', 'UNSPECIFIED', 'UNSPECIFIED', ('UNSPECIFIED'), ('UNSPECIFIED'), ('UNSPECIFIED') ) ;
#89 = CC_DESIGN_PERSON_AND_ORGANIZATION_ASSIGNMENT ( #60, #78, ( #62 ) ) ;
#90 = APPROVAL_DATE_TIME ( #42, #7 ) ;
#91 = VECTOR ( 'NONE', #101, 1000.000000000000000 ) ;
#92 = DIRECTION ( 'NONE',  ( 1.000000000000000000, 0.000000000000000000, 0.000000000000000000 ) ) ;
#93 = PERSON_AND_ORGANIZATION ( #88, #72 ) ;
#94 = EDGE_LOOP ( 'NONE', ( #16, #125, #36, #25 ) ) ;
#95 = EDGE_CURVE ( 'NONE', #109, #160, #30, .T. ) ;
#96 = CARTESIAN_POINT ( 'NONE',  ( 0.000000000000000000, 0.000000000000000000, 0.000000000000000000 ) ) ;
#97 = LOCAL_TIME ( 10, 22, 27.00000000000000000, #9 ) ;
#98 =( NAMED_UNIT ( * ) PLANE_ANGLE_UNIT ( ) SI_UNIT ( $, .RADIAN. ) );
#99 = DIRECTION ( 'NONE',  ( -1.000000000000000000, -0.000000000000000000, -0.000000000000000000 ) ) ;
#100 = DIRECTION ( 'NONE',  ( 0.000000000000000000, 0.000000000000000000, 1.000000000000000000 ) ) ;
#101 = DIRECTION ( 'NONE',  ( -1.000000000000000000, -0.000000000000000000, -0.000000000000000000 ) ) ;
#102 = APPROVAL_STATUS ( 'not_yet_approved' ) ;
#103 = CC_DESIGN_APPROVAL ( #7, ( #47 ) ) ;
#104 = DATE_AND_TIME ( #169, #107 ) ;
#105 = SECURITY_CLASSIFICATION_LEVEL ( 'unclassified' ) ;
#106 = COORDINATED_UNIVERSAL_TIME_OFFSET ( 8, 0, .AHEAD. ) ;
#107 = LOCAL_TIME ( 10, 22, 27.00000000000000000, #106 ) ;
#108 = CC_DESIGN_PERSON_AND_ORGANIZATION_ASSIGNMENT ( #11, #58, ( #49 ) ) ;
#109 = VERTEX_POINT ( 'NONE', #41 ) ;
#110 = ADVANCED_BREP_SHAPE_REPRESENTATION ( 'BK7-SPDBSP-25.4-805', ( #76, #116 ), #53 ) ;
#111 = CYLINDRICAL_SURFACE ( 'NONE', #26, 12.69999999999999929 ) ;
#112 = FACE_OUTER_BOUND ( 'NONE', #48, .T. ) ;
#113 = AXIS2_PLACEMENT_3D ( 'NONE', #27, #52, #2 ) ;
#114 = DIRECTION ( 'NONE',  ( -1.000000000000000000, -0.000000000000000000, -0.000000000000000000 ) ) ;
#115 =( LENGTH_UNIT ( ) NAMED_UNIT ( * ) SI_UNIT ( .MILLI., .METRE. ) );
#116 = AXIS2_PLACEMENT_3D ( 'NONE', #157, #171, #92 ) ;
#117 = PERSON_AND_ORGANIZATION ( #88, #72 ) ;
#118 = DATE_TIME_ROLE ( 'creation_date' ) ;
#119 = ADVANCED_FACE ( 'NONE', ( #20 ), #111, .T. ) ;
#120 = CC_DESIGN_SECURITY_CLASSIFICATION ( #47, ( #35 ) ) ;
#121 = CALENDAR_DATE ( 2020, 22, 12 ) ;
#122 = COORDINATED_UNIVERSAL_TIME_OFFSET ( 8, 0, .AHEAD. ) ;
#123 = APPROVAL_STATUS ( 'not_yet_approved' ) ;
#124 = DIRECTION ( 'NONE',  ( -1.000000000000000000, 0.000000000000000000, -0.000000000000000000 ) ) ;
#125 = ORIENTED_EDGE ( 'NONE', *, *, #21, .T. ) ;
#126 = CC_DESIGN_DATE_AND_TIME_ASSIGNMENT ( #8, #77, ( #47 ) ) ;
#127 = CC_DESIGN_APPROVAL ( #85, ( #49 ) ) ;
#128 = CYLINDRICAL_SURFACE ( 'NONE', #6, 12.69999999999999929 ) ;
#129 = EDGE_CURVE ( 'NONE', #147, #160, #56, .T. ) ;
#130 = LINE ( 'NONE', #17, #91 ) ;
#131 = CARTESIAN_POINT ( 'NONE',  ( -1.187907395172932594E-15, 0.000000000000000000, 0.000000000000000000 ) ) ;
#132 = PERSON_AND_ORGANIZATION ( #88, #72 ) ;
#133 = AXIS2_PLACEMENT_3D ( 'NONE', #164, #1, #162 ) ;
#134 = CALENDAR_DATE ( 2020, 22, 12 ) ;
#135 = APPROVAL_STATUS ( 'not_yet_approved' ) ;
#136 = ORIENTED_EDGE ( 'NONE', *, *, #142, .F. ) ;
#137 = CC_DESIGN_PERSON_AND_ORGANIZATION_ASSIGNMENT ( #79, #156, ( #35 ) ) ;
#138 = ORIENTED_EDGE ( 'NONE', *, *, #148, .T. ) ;
#139 = CARTESIAN_POINT ( 'NONE',  ( 0.000000000000000000, 0.000000000000000000, 0.000000000000000000 ) ) ;
#140 = DIRECTION ( 'NONE',  ( -1.000000000000000000, -0.000000000000000000, -0.000000000000000000 ) ) ;
#141 = DIRECTION ( 'NONE',  ( 1.000000000000000000, 0.000000000000000000, 0.000000000000000000 ) ) ;
#142 = EDGE_CURVE ( 'NONE', #160, #147, #159, .T. ) ;
#143 = CIRCLE ( 'NONE', #113, 12.69999999999999929 ) ;
#144 = PERSON_AND_ORGANIZATION_ROLE ( 'classification_officer' ) ;
#145 = PERSON_AND_ORGANIZATION ( #88, #72 ) ;
#146 = DESIGN_CONTEXT ( 'detailed design', #39, 'design' ) ;
#147 = VERTEX_POINT ( 'NONE', #151 ) ;
#148 = EDGE_CURVE ( 'NONE', #109, #149, #175, .T. ) ;
#149 = VERTEX_POINT ( 'NONE', #4 ) ;
#150 = DIRECTION ( 'NONE',  ( -0.000000000000000000, 0.000000000000000000, 1.000000000000000000 ) ) ;
#151 = CARTESIAN_POINT ( 'NONE',  ( -1.187907395172932594E-15, 1.555301434917138433E-15, -12.69999999999999929 ) ) ;
#152 = CC_DESIGN_DATE_AND_TIME_ASSIGNMENT ( #45, #118, ( #49 ) ) ;
#153 = APPLICATION_CONTEXT ( 'configuration controlled 3d designs of mechanical parts and assemblies' ) ;
#154 = SHAPE_DEFINITION_REPRESENTATION ( #80, #110 ) ;
#155 = APPROVAL_PERSON_ORGANIZATION ( #145, #165, #170 ) ;
#156 = PERSON_AND_ORGANIZATION_ROLE ( 'creator' ) ;
#157 = CARTESIAN_POINT ( 'NONE',  ( 0.000000000000000000, 0.000000000000000000, 0.000000000000000000 ) ) ;
#158 = APPROVAL_DATE_TIME ( #104, #165 ) ;
#159 = CIRCLE ( 'NONE', #63, 12.69999999999999929 ) ;
#160 = VERTEX_POINT ( 'NONE', #55 ) ;
#161 = APPROVAL_PERSON_ORGANIZATION ( #132, #85, #46 ) ;
#162 = DIRECTION ( 'NONE',  ( 0.000000000000000000, 0.000000000000000000, 1.000000000000000000 ) ) ;
#163 = AXIS2_PLACEMENT_3D ( 'NONE', #50, #124, #150 ) ;
#164 = CARTESIAN_POINT ( 'NONE',  ( 3.499999999999998224, 0.000000000000000000, 0.000000000000000000 ) ) ;
#165 = APPROVAL ( #135, 'UNSPECIFIED' ) ;
#166 = CARTESIAN_POINT ( 'NONE',  ( -1.187907395172932594E-15, 0.000000000000000000, 0.000000000000000000 ) ) ;
#167 = AXIS2_PLACEMENT_3D ( 'NONE', #166, #114, #71 ) ;
#168 = CALENDAR_DATE ( 2020, 22, 12 ) ;
#169 = CALENDAR_DATE ( 2020, 22, 12 ) ;
#170 = APPROVAL_ROLE ( '' ) ;
#171 = DIRECTION ( 'NONE',  ( 0.000000000000000000, 0.000000000000000000, 1.000000000000000000 ) ) ;
#172 = CC_DESIGN_PERSON_AND_ORGANIZATION_ASSIGNMENT ( #33, #34, ( #35 ) ) ;
#173 = ORIENTED_EDGE ( 'NONE', *, *, #142, .T. ) ;
#174 = PLANE ( 'NONE',  #163 ) ;
#175 = CIRCLE ( 'NONE', #133, 12.69999999999999929 ) ;
ENDSEC;
END-ISO-10303-21;
